ISO-10303-21;
HEADER;
FILE_DESCRIPTION (( 'STEP AP203' ),
    '1' );
FILE_NAME ('BK7-RNDF-50-0.3.STEP',
    '2020-12-22T01:28:49',
    ( '' ),
    ( '' ),
    'SwSTEP 2.0',
    'SolidWorks 2020',
    '' );
FILE_SCHEMA (( 'CONFIG_CONTROL_DESIGN' ));
ENDSEC;

DATA;
#1 = FACE_OUTER_BOUND ( 'NONE', #126, .T. ) ;
#2 = ORIENTED_EDGE ( 'NONE', *, *, #59, .T. ) ;
#3 = DIRECTION ( 'NONE',  ( 1.000000000000000000, 0.000000000000000000, 0.000000000000000000 ) ) ;
#4 =( NAMED_UNIT ( * ) PLANE_ANGLE_UNIT ( ) SI_UNIT ( $, .RADIAN. ) );
#5 = APPROVAL ( #23, 'UNSPECIFIED' ) ;
#6 = CC_DESIGN_SECURITY_CLASSIFICATION ( #41, ( #47 ) ) ;
#7 = EDGE_LOOP ( 'NONE', ( #108, #134 ) ) ;
#8 = APPROVAL_STATUS ( 'not_yet_approved' ) ;
#9 = APPROVAL_DATE_TIME ( #89, #81 ) ;
#10 = CALENDAR_DATE ( 2020, 22, 12 ) ;
#11 = CC_DESIGN_PERSON_AND_ORGANIZATION_ASSIGNMENT ( #78, #104, ( #91 ) ) ;
#12 = LINE ( 'NONE', #141, #42 ) ;
#13 = CC_DESIGN_DATE_AND_TIME_ASSIGNMENT ( #118, #20, ( #41 ) ) ;
#14 = CIRCLE ( 'NONE', #24, 25.00000000000000000 ) ;
#15 = EDGE_LOOP ( 'NONE', ( #156, #151, #83, #132 ) ) ;
#16 = CC_DESIGN_APPROVAL ( #5, ( #47 ) ) ;
#17 = CYLINDRICAL_SURFACE ( 'NONE', #136, 25.00000000000000000 ) ;
#18 = CARTESIAN_POINT ( 'NONE',  ( -2.694222958124177204E-15, 0.000000000000000000, 0.000000000000000000 ) ) ;
#19 = PLANE ( 'NONE',  #109 ) ;
#20 = DATE_TIME_ROLE ( 'classification_date' ) ;
#21 = PERSON_AND_ORGANIZATION ( #140, #94 ) ;
#22 = COORDINATED_UNIVERSAL_TIME_OFFSET ( 8, 0, .AHEAD. ) ;
#23 = APPROVAL_STATUS ( 'not_yet_approved' ) ;
#24 = AXIS2_PLACEMENT_3D ( 'NONE', #62, #100, #154 ) ;
#25 = AXIS2_PLACEMENT_3D ( 'NONE', #85, #63, #43 ) ;
#26 = APPROVAL_PERSON_ORGANIZATION ( #159, #5, #67 ) ;
#27 = CC_DESIGN_PERSON_AND_ORGANIZATION_ASSIGNMENT ( #49, #171, ( #47 ) ) ;
#28 = FACE_OUTER_BOUND ( 'NONE', #173, .T. ) ;
#29 = CARTESIAN_POINT ( 'NONE',  ( 1.999999999999997113, 3.061616997868383043E-15, -25.00000000000000000 ) ) ;
#30 = ADVANCED_FACE ( 'NONE', ( #112 ), #19, .F. ) ;
#31 = CARTESIAN_POINT ( 'NONE',  ( 1.999999999999997113, 0.000000000000000000, 25.00000000000000000 ) ) ;
#32 = VERTEX_POINT ( 'NONE', #31 ) ;
#33 = PERSON_AND_ORGANIZATION_ROLE ( 'classification_officer' ) ;
#34 = AXIS2_PLACEMENT_3D ( 'NONE', #153, #3, #60 ) ;
#35 = COORDINATED_UNIVERSAL_TIME_OFFSET ( 8, 0, .AHEAD. ) ;
#36 = APPLICATION_CONTEXT ( 'configuration controlled 3d designs of mechanical parts and assemblies' ) ;
#37 = DIRECTION ( 'NONE',  ( 1.000000000000000000, 0.000000000000000000, 0.000000000000000000 ) ) ;
#38 = PRODUCT_DEFINITION_SHAPE ( 'NONE', 'NONE',  #147 ) ;
#39 = ADVANCED_BREP_SHAPE_REPRESENTATION ( 'BK7-RNDF-50-0.3', ( #174, #58 ), #122 ) ;
#40 = APPROVAL_ROLE ( '' ) ;
#41 = SECURITY_CLASSIFICATION ( '', '', #116 ) ;
#42 = VECTOR ( 'NONE', #97, 1000.000000000000000 ) ;
#43 = DIRECTION ( 'NONE',  ( 0.000000000000000000, 0.000000000000000000, 1.000000000000000000 ) ) ;
#44 = DIRECTION ( 'NONE',  ( 0.000000000000000000, 0.000000000000000000, 1.000000000000000000 ) ) ;
#45 = AXIS2_PLACEMENT_3D ( 'NONE', #61, #73, #44 ) ;
#46 = FACE_OUTER_BOUND ( 'NONE', #15, .T. ) ;
#47 = PRODUCT_DEFINITION_FORMATION_WITH_SPECIFIED_SOURCE ( 'ANY', '', #91, .NOT_KNOWN. ) ;
#48 = DIRECTION ( 'NONE',  ( -1.000000000000000000, -0.000000000000000000, -0.000000000000000000 ) ) ;
#49 = PERSON_AND_ORGANIZATION ( #140, #94 ) ;
#50 = PRODUCT_RELATED_PRODUCT_CATEGORY ( 'detail', '', ( #91 ) ) ;
#51 = APPLICATION_PROTOCOL_DEFINITION ( 'international standard', 'config_control_design', 1994, #36 ) ;
#52 = PERSON_AND_ORGANIZATION_ROLE ( 'creator' ) ;
#53 = APPROVAL_STATUS ( 'not_yet_approved' ) ;
#54 = EDGE_CURVE ( 'NONE', #157, #32, #14, .T. ) ;
#55 = VERTEX_POINT ( 'NONE', #87 ) ;
#56 = VECTOR ( 'NONE', #167, 1000.000000000000000 ) ;
#57 = APPROVAL_PERSON_ORGANIZATION ( #115, #81, #40 ) ;
#58 = AXIS2_PLACEMENT_3D ( 'NONE', #79, #160, #37 ) ;
#59 = EDGE_CURVE ( 'NONE', #165, #55, #72, .T. ) ;
#60 = DIRECTION ( 'NONE',  ( 0.000000000000000000, 0.000000000000000000, -1.000000000000000000 ) ) ;
#61 = CARTESIAN_POINT ( 'NONE',  ( 0.000000000000000000, 0.000000000000000000, 0.000000000000000000 ) ) ;
#62 = CARTESIAN_POINT ( 'NONE',  ( 1.999999999999997113, 0.000000000000000000, 0.000000000000000000 ) ) ;
#63 = DIRECTION ( 'NONE',  ( -1.000000000000000000, -0.000000000000000000, -0.000000000000000000 ) ) ;
#64 = COORDINATED_UNIVERSAL_TIME_OFFSET ( 8, 0, .AHEAD. ) ;
#65 = CALENDAR_DATE ( 2020, 22, 12 ) ;
#66 = APPROVAL_DATE_TIME ( #106, #5 ) ;
#67 = APPROVAL_ROLE ( '' ) ;
#68 = CLOSED_SHELL ( 'NONE', ( #150, #175, #30, #121 ) ) ;
#69 = LOCAL_TIME ( 9, 28, 49.00000000000000000, #127 ) ;
#70 = CC_DESIGN_DATE_AND_TIME_ASSIGNMENT ( #128, #146, ( #147 ) ) ;
#71 = CARTESIAN_POINT ( 'NONE',  ( 0.000000000000000000, 3.061616997868383043E-15, -25.00000000000000000 ) ) ;
#72 = CIRCLE ( 'NONE', #25, 25.00000000000000000 ) ;
#73 = DIRECTION ( 'NONE',  ( -1.000000000000000000, -0.000000000000000000, -0.000000000000000000 ) ) ;
#74 = CARTESIAN_POINT ( 'NONE',  ( 1.999999999999998224, 25.00000000000000000, 0.000000000000000000 ) ) ;
#75 = DIRECTION ( 'NONE',  ( 0.000000000000000000, 0.000000000000000000, 1.000000000000000000 ) ) ;
#76 = UNCERTAINTY_MEASURE_WITH_UNIT (LENGTH_MEASURE( 1.000000000000000082E-05 ), #139, 'distance_accuracy_value', 'NONE');
#77 = APPROVAL_ROLE ( '' ) ;
#78 = PERSON_AND_ORGANIZATION ( #140, #94 ) ;
#79 = CARTESIAN_POINT ( 'NONE',  ( 0.000000000000000000, 0.000000000000000000, 0.000000000000000000 ) ) ;
#80 = APPLICATION_PROTOCOL_DEFINITION ( 'international standard', 'config_control_design', 1994, #117 ) ;
#81 = APPROVAL ( #8, 'UNSPECIFIED' ) ;
#82 = CYLINDRICAL_SURFACE ( 'NONE', #45, 25.00000000000000000 ) ;
#83 = ORIENTED_EDGE ( 'NONE', *, *, #86, .T. ) ;
#84 = DIRECTION ( 'NONE',  ( 0.000000000000000000, 0.000000000000000000, 1.000000000000000000 ) ) ;
#85 = CARTESIAN_POINT ( 'NONE',  ( -2.694222958124177204E-15, 0.000000000000000000, 0.000000000000000000 ) ) ;
#86 = EDGE_CURVE ( 'NONE', #32, #55, #12, .T. ) ;
#87 = CARTESIAN_POINT ( 'NONE',  ( -2.694222958124177204E-15, 0.000000000000000000, 25.00000000000000000 ) ) ;
#88 = COORDINATED_UNIVERSAL_TIME_OFFSET ( 8, 0, .AHEAD. ) ;
#89 = DATE_AND_TIME ( #10, #107 ) ;
#90 =( NAMED_UNIT ( * ) SI_UNIT ( $, .STERADIAN. ) SOLID_ANGLE_UNIT ( ) );
#91 = PRODUCT ( 'BK7-RNDF-50-0.3', 'BK7-RNDF-50-0.3', '', ( #103 ) ) ;
#92 = CALENDAR_DATE ( 2020, 22, 12 ) ;
#93 = ORIENTED_EDGE ( 'NONE', *, *, #129, .F. ) ;
#94 = ORGANIZATION ( 'UNSPECIFIED', 'UNSPECIFIED', '' ) ;
#95 = ORIENTED_EDGE ( 'NONE', *, *, #129, .T. ) ;
#96 = CC_DESIGN_PERSON_AND_ORGANIZATION_ASSIGNMENT ( #21, #52, ( #147 ) ) ;
#97 = DIRECTION ( 'NONE',  ( -1.000000000000000000, -0.000000000000000000, -0.000000000000000000 ) ) ;
#98 = CARTESIAN_POINT ( 'NONE',  ( 0.000000000000000000, 0.000000000000000000, 0.000000000000000000 ) ) ;
#99 = LOCAL_TIME ( 9, 28, 49.00000000000000000, #22 ) ;
#100 = DIRECTION ( 'NONE',  ( -1.000000000000000000, -0.000000000000000000, -0.000000000000000000 ) ) ;
#101 = EDGE_CURVE ( 'NONE', #157, #165, #125, .T. ) ;
#102 = DIRECTION ( 'NONE',  ( -1.000000000000000000, 0.000000000000000000, -0.000000000000000000 ) ) ;
#103 = MECHANICAL_CONTEXT ( 'NONE', #117, 'mechanical' ) ;
#104 = PERSON_AND_ORGANIZATION_ROLE ( 'design_owner' ) ;
#105 = APPROVAL_DATE_TIME ( #170, #149 ) ;
#106 = DATE_AND_TIME ( #119, #143 ) ;
#107 = LOCAL_TIME ( 9, 28, 49.00000000000000000, #35 ) ;
#108 = ORIENTED_EDGE ( 'NONE', *, *, #113, .F. ) ;
#109 = AXIS2_PLACEMENT_3D ( 'NONE', #74, #102, #152 ) ;
#110 = DIRECTION ( 'NONE',  ( -1.000000000000000000, -0.000000000000000000, -0.000000000000000000 ) ) ;
#111 = CARTESIAN_POINT ( 'NONE',  ( 1.999999999999997113, 0.000000000000000000, 0.000000000000000000 ) ) ;
#112 = FACE_OUTER_BOUND ( 'NONE', #7, .T. ) ;
#113 = EDGE_CURVE ( 'NONE', #32, #157, #142, .T. ) ;
#114 = ORIENTED_EDGE ( 'NONE', *, *, #86, .F. ) ;
#115 = PERSON_AND_ORGANIZATION ( #140, #94 ) ;
#116 = SECURITY_CLASSIFICATION_LEVEL ( 'unclassified' ) ;
#117 = APPLICATION_CONTEXT ( 'configuration controlled 3d designs of mechanical parts and assemblies' ) ;
#118 = DATE_AND_TIME ( #145, #148 ) ;
#119 = CALENDAR_DATE ( 2020, 22, 12 ) ;
#120 = CC_DESIGN_PERSON_AND_ORGANIZATION_ASSIGNMENT ( #168, #33, ( #41 ) ) ;
#121 = ADVANCED_FACE ( 'NONE', ( #1 ), #138, .F. ) ;
#122 =( GEOMETRIC_REPRESENTATION_CONTEXT ( 3 ) GLOBAL_UNCERTAINTY_ASSIGNED_CONTEXT ( ( #76 ) ) GLOBAL_UNIT_ASSIGNED_CONTEXT ( ( #139, #4, #90 ) ) REPRESENTATION_CONTEXT ( 'NONE', 'WORKASPACE' ) );
#123 = AXIS2_PLACEMENT_3D ( 'NONE', #18, #166, #75 ) ;
#124 = ORIENTED_EDGE ( 'NONE', *, *, #101, .T. ) ;
#125 = LINE ( 'NONE', #71, #56 ) ;
#126 = EDGE_LOOP ( 'NONE', ( #95, #2 ) ) ;
#127 = COORDINATED_UNIVERSAL_TIME_OFFSET ( 8, 0, .AHEAD. ) ;
#128 = DATE_AND_TIME ( #92, #99 ) ;
#129 = EDGE_CURVE ( 'NONE', #55, #165, #131, .T. ) ;
#130 = PERSON_AND_ORGANIZATION ( #140, #94 ) ;
#131 = CIRCLE ( 'NONE', #123, 25.00000000000000000 ) ;
#132 = ORIENTED_EDGE ( 'NONE', *, *, #59, .F. ) ;
#133 = DESIGN_CONTEXT ( 'detailed design', #36, 'design' ) ;
#134 = ORIENTED_EDGE ( 'NONE', *, *, #54, .F. ) ;
#135 = DIRECTION ( 'NONE',  ( 0.000000000000000000, 0.000000000000000000, 1.000000000000000000 ) ) ;
#136 = AXIS2_PLACEMENT_3D ( 'NONE', #98, #110, #135 ) ;
#137 = CC_DESIGN_APPROVAL ( #149, ( #41 ) ) ;
#138 = PLANE ( 'NONE',  #34 ) ;
#139 =( LENGTH_UNIT ( ) NAMED_UNIT ( * ) SI_UNIT ( .MILLI., .METRE. ) );
#140 = PERSON ( 'UNSPECIFIED', 'UNSPECIFIED', 'UNSPECIFIED', ('UNSPECIFIED'), ('UNSPECIFIED'), ('UNSPECIFIED') ) ;
#141 = CARTESIAN_POINT ( 'NONE',  ( 0.000000000000000000, 0.000000000000000000, 25.00000000000000000 ) ) ;
#142 = CIRCLE ( 'NONE', #163, 25.00000000000000000 ) ;
#143 = LOCAL_TIME ( 9, 28, 49.00000000000000000, #64 ) ;
#144 = CC_DESIGN_PERSON_AND_ORGANIZATION_ASSIGNMENT ( #130, #158, ( #47 ) ) ;
#145 = CALENDAR_DATE ( 2020, 22, 12 ) ;
#146 = DATE_TIME_ROLE ( 'creation_date' ) ;
#147 = PRODUCT_DEFINITION ( 'UNKNOWN', '', #47, #133 ) ;
#148 = LOCAL_TIME ( 9, 28, 49.00000000000000000, #88 ) ;
#149 = APPROVAL ( #53, 'UNSPECIFIED' ) ;
#150 = ADVANCED_FACE ( 'NONE', ( #28 ), #17, .T. ) ;
#151 = ORIENTED_EDGE ( 'NONE', *, *, #54, .T. ) ;
#152 = DIRECTION ( 'NONE',  ( -0.000000000000000000, 0.000000000000000000, 1.000000000000000000 ) ) ;
#153 = CARTESIAN_POINT ( 'NONE',  ( -1.347111479062088602E-15, 25.00000000000000000, 0.000000000000000000 ) ) ;
#154 = DIRECTION ( 'NONE',  ( 0.000000000000000000, 0.000000000000000000, 1.000000000000000000 ) ) ;
#155 = CC_DESIGN_APPROVAL ( #81, ( #147 ) ) ;
#156 = ORIENTED_EDGE ( 'NONE', *, *, #101, .F. ) ;
#157 = VERTEX_POINT ( 'NONE', #29 ) ;
#158 = PERSON_AND_ORGANIZATION_ROLE ( 'design_supplier' ) ;
#159 = PERSON_AND_ORGANIZATION ( #140, #94 ) ;
#160 = DIRECTION ( 'NONE',  ( 0.000000000000000000, 0.000000000000000000, 1.000000000000000000 ) ) ;
#161 = APPROVAL_PERSON_ORGANIZATION ( #169, #149, #77 ) ;
#162 = ORIENTED_EDGE ( 'NONE', *, *, #113, .T. ) ;
#163 = AXIS2_PLACEMENT_3D ( 'NONE', #111, #48, #84 ) ;
#164 = CARTESIAN_POINT ( 'NONE',  ( -2.694222958124177204E-15, 3.061616997868383043E-15, -25.00000000000000000 ) ) ;
#165 = VERTEX_POINT ( 'NONE', #164 ) ;
#166 = DIRECTION ( 'NONE',  ( -1.000000000000000000, -0.000000000000000000, -0.000000000000000000 ) ) ;
#167 = DIRECTION ( 'NONE',  ( -1.000000000000000000, -0.000000000000000000, -0.000000000000000000 ) ) ;
#168 = PERSON_AND_ORGANIZATION ( #140, #94 ) ;
#169 = PERSON_AND_ORGANIZATION ( #140, #94 ) ;
#170 = DATE_AND_TIME ( #65, #69 ) ;
#171 = PERSON_AND_ORGANIZATION_ROLE ( 'creator' ) ;
#172 = SHAPE_DEFINITION_REPRESENTATION ( #38, #39 ) ;
#173 = EDGE_LOOP ( 'NONE', ( #162, #124, #93, #114 ) ) ;
#174 = MANIFOLD_SOLID_BREP ( 'Ðý×', #68 ) ;
#175 = ADVANCED_FACE ( 'NONE', ( #46 ), #82, .T. ) ;
ENDSEC;
END-ISO-10303-21;
